I've Just Seen A Face --- I've Just Seen A Face- Paul McCartney @MACCA-Central
  I've Just Seen A Face
(Paul McCartney/John Lennon)
©Northern Songs

MACCAChords
www.macca-central.com
Print
    Chords used:
           EADGBE
    A:     x02220
    F#m:   224422
    D:     xx0232
    E:     022100
    
    
    INTRO:
    
    FIRST GUITAR:
    
    E:-------------2-----2-----2------5-----5-----5--------9--
    B:-----------------------------------------------------7--
    G:----------2--2--2--2--2--2---6--6--6--6--6--6--11-6-----
    D:----------4-----4-----4------7-----7-----7--------------
    A:--------------------------------------------------------
    E:--------------------------------------------------------
    
    E:--------9--------9---------
    B:--------7--------7---------
    G:--11-6-----11-6------------
    D:---------------------------
    A:---------------------------
    E:---------------------------
    
    SECOND GUITAR (simultaneously):
               F#m
    E:----------2---------------------------------------------
    B:----------2---------------------------------------------
    G:----------2---------------------------------------------
    D:----------4---------------------------------------------
    A:----------4---------------------------------------------
    E:--5--4----2-----2------------2------------------2-------
    
    FIRST GUITAR:
    
    E:--------14-5-------14-5-------14-5---------10--------10--
    B:-----7----------7----------7---------------7---------7---
    G:--14---------14---------14-----------11-7------11-7------
    D:---------------------------------------------------------
    A:---------------------------------------------------------
    E:---------------------------------------------------------
    
    E:--------10---------
    B:--------7----------
    G:--11--7------------
    D:-------------------
    A:-------------------
    E:-------------------
    
    SECOND GUITAR:
                                           D
    E:-------------------------------------2----------------
    B:-------------------------------------3----------------
    G:-------------------------------------2----------------
    D:-------------------------------------0----------0-----
    A:--4----------------2----------------------------------
    E:------------------------------------------------------
    
    FIRST GUITAR:
    
    E:--------12--------12-------12--------14---------14--------14-
    B:--------8---------8--------8---------10---------10--------10-
    G:--12-9------12-9-----12-9-----14-11------14-11------14-11----
    D:-------------------------------------------------------------
    A:-------------------------------------------------------------
    E:-------------------------------------------------------------
    
    SECOND GUITAR:
    
    E:-------------------------------------------------------------
    B:-------------------------------------------------------------
    G:-------------------------------------------------------------
    D:---0-----------------------------0---------------------------
    A:-------------------------------------------------------------
    E:-------------------------------------------------------------
    
    FIRST GUITAR:
    
    E:--------14---------14---------14--------12-------12-------12-
    B:--------10---------10---------10--------9--------9--------9--
    G:--14-11------14-11------14-11-----13-9-----13-9-----13-9-----
    D:-------------------------------------------------------------
    A:-------------------------------------------------------------
    E:-------------------------------------------------------------
    
    SECOND GUITAR:
                                         E
    E:-----------------------------------0-------------------------
    B:-----------------------------------0-------------------------
    G:-----------------------------------1-------------------------
    D:---0-------------------------------2-------------------------
    A:------------------4----------------2---------2---------------
    E:-----------------------------------0-------------------------
    
    FIRST GUITAR:
    
    E:--------10--------10--------10-------------------------------
    B:--------7---------7---------7--------------------------------
    G:--11-7------11-7------11-7-----------------------------------
    D:-------------------------------------------------------------
    A:-------------------------------------------------------------
    E:-------------------------------------------------------------
    
    SECOND GUITAR:
    
    E:------------------------------------------------------------
    B:------------------------------------------------------------
    G:------------------------------------------------------------
    D:---0--------------------------------------------------------
    A:------------------------------------------------------------
    E:-----------------4------------------------------------------
    
    A
    I've just seen a face
                                                   F#m
    I can't forget the time or place where we just met
    She's just the girl for me
                                           D
    And I want all the world to see we've met
           E        A
    Mm da da da da da
    
    FIRST GUITAR:
    
       I've just face can't get place we  met just
    E:------0---------------------------------2---------------
    B:------2---------------------------------2---------------
    G:------2---------------------------------2---------------
    D:------2---------------------------------4---------------
    A:--0---0----4----2-----0---0-------------4---------------
    E:--------------------------------4---2---2---------------
    
      world see met    Mm   da  da da  da   da  
    E:------------------------------------------0--0----------
    B:------------------------------------------0--2----------
    G:------------------------------------------2--2----------
    D:--4---2---0-------0-----------------------2--2----------
    A:--------------0-------4---2---0-------0------0----------
    E:----------------------------------4---------------------
    
    Had it been another day
    I might have looked the other way
    And I'd have never been aware
    But as it is, I'll dream of her tonight
    Da da da da da da
    
    E                  D
    Falling, yes, I'm falling
                   A       D        A
    And she keeps calling me back again
    
    I have never known the likes of this
    I've been alone and I have missed things
    And kept out of sight
    For other girls were never quite like this
    Da da da da da da
    
    Falling, yes, I'm falling
    And she keeps calling me back again
    
    SOLO:
    
    E:------------------------------------------------------------
    B:------------------------------------------------------------
    G:------------------------------------------------------------
    D:------------------------------------------------------------
    A:--0--0--0--2--2--0--0--4--4--0--0--5--5--4--4--2---0--0--0--
    E:------------------------------------------------------------
    
    E:------------------------------
    B:------------------------------
    G:------------------------------
    D:------------------------------
    A:--2--2--0--0--4---------------
    E:------------------------------
    
    E:-------------------------------------------0---------------
    B:-------------------------------------------2---------------
    G:-------------------------------------------2---------------
    D:-------------------------------------------2---------------
    A:--4--5--5--4--4--2--0---2--0-----------0---0---------------
    E:------------------------------4--2--4----------------------
    
    
    Falling, yes, I'm falling
    And she keeps calling me back again
    
    I've just seen a face
    I can't forget the time or place where we just met
    She's just the girl for me
    And I want all the world to see we've met
    Mm da da da da da
    
    Falling, yes, I'm falling
    And she keeps calling me back again
    
    Falling, yes, I'm falling
    And she keeps calling me back again
    
    Falling, yes, I'm falling
    And she keeps calling me back again
    
    END:
    
        D      E       A
    E:--------------------0--------
    B:--------------------2--------
    G:--------------------2--------
    D:--0-----------------2--------
    A:-----4--2--0-----0--0--------
    E:--------------4-------------- 
     

Lyrics and chords are presented here by macca-central.com for archival, educational, and/or critique purposes. Lyrics and chords are the property of their respective authors, artists and/or labels and MACCAcentral in no way claims any ownership.

BASIC Guitar Chords (click)
MORE Guitar Chords (click)