And I Love Her --- And I Love Her- Paul McCartney @MACCA-Central
  And I Love Her
(Lennon/McCartney)
©Northern Songs

MACCAChords
www.macca-central.com
Print
    Chords:
           EADGBE
    F#m:   224422
    C#m:   x46654
    A:     x02220
    B7:    x24242
    E6:    022120
    B*:    799877
    G#m:   466444
    B:     x24442
    Gm:    355333
    Dm:    x57765
    Bb:    x13331
    C:     x35553
    F:     133211
    C7:    x35353
    F6:    133231
    D:     xx0232
    
    
    FIRST GUITAR (second guitar plays chords):
    
                 F#m               E6
    E:----------------------------------------------
    B:----------------------------------------------
    G:----------------------------------------------
    D:-----2--1--------------2--1--------------2--1-
    A:--2--------4---4----2--------4---4----2-------
    E:----------------------------------------------
    
              I   give     all
    E:--------9----------9--------9-------9---------
    E:-----10---10----10---10---9---9---9---9-------
    E:--11---------11---------9-------9-------------
    E:----------------------------------------------
    E:----------------------------------------------
    E:----------------------------------------------
    [repeat two times from]
    
    
            You'd      too      I    love            her    
    E:-------9---------9----------11----------11--------9---
    B:----10---10---10---10----10----10----10----10---9---9-
    G:--9---------9---------11----------11----------9-------
    D:------------------------------------------------------
    A:------------------------------------------------------
    E:------------------------------------------------------
    
    E:------9-------9----------------
    B:----9---9---9---9-------------
    G:--9-------9-------9------------
    D:------------------------------
    A:------------------------------
    E:-----------------------------
    
    F#m        C#m
    I give her all my love
    F#m          C#m
    That's all I do
    F#m        C#m
    And if you saw my love
    A               B7
     You'd love her too
        E6
    I love her
    
    She gives me everything
    And tenderly
    The kiss my lover brings
    She brings to me
    And I love her
    
    C#m          B (second guitar: B*)
    A love like ours
    C#m          G#m
    Could never die
    C#m        G#m
    As long as I
              B (second guitar: B*, then B)
    Have you near me
    
    Bright are the stars that shine
    Dark is the sky
    I know this love of mine
    Will never die
    And I love her
    
    SOLO (second guitar plays chords):
    
       Gm         Dm      Gm       Dm   Gm       Dm
    E:---------------------------------------------------------
    B:---------------------------------------------------------
    G:-----------9--7s10------------9s7-----------9--7s10------
    D:--5--7--8------------5--7--8-------5--7--8---------------
    A:---------------------------------------------------------
    E:---------------------------------------------------------
    
       Bb          C             F     
    E:---------------------------------------------------------
    B:---------------------------------------------------------
    G:--10--7--------------------------------------------------
    D:---------8---7--7s5-----------7--------------------------
    A:---------------------3--3--5-----3--3--------------------
    E:---------------------------------------5--3--1--1h3------
    
    Gm              Dm
    Bright are the stars that shine
    Gm           Dm
    Dark is the sky
    Gm           Dm
    I know this love of mine
    Bb          C7
    Will never die
           F6
    And I love her
    
    FIRST GUITAR (second guitar plays chords):
    
         stars     shine               dark           sky
    E:--------10----------10-----------10----------10----------
    B:-----10----10----10----10-----11----11----11----11----10-
    G:--10----------10-----------12----------12----------10----
    D:---------------------------------------------------------
    A:---------------------------------------------------------
    E:---------------------------------------------------------
    
    E:--10----------10----------
    E:-----10----10----10-------
    E:--------10----------------
    E:--------------------------
    E:--------------------------
    E:--------------------------
    
    E:--------10----------10-----------10----------10----------
    B:-----10----10----10----10-----11----11----11----11----10-
    G:--10----------10-----------12----------12----------10----
    D:---------------------------------------------------------
    A:---------------------------------------------------------
    E:---------------------------------------------------------
    
    E:--10----------10----------
    E:-----10----10----10-------
    E:--------10----------------
    E:--------------------------
    E:--------------------------
    E:--------------------------
    
             will            die                    I love
    E:--------10----------10-----------12----------12----------
    B:-----11----11----11----11-----11----11----11----11----10-
    G:--10----------10-----------12----------12----------10----
    D:---------------------------------------------------------
    A:---------------------------------------------------------
    E:---------------------------------------------------------
    
        her
    E:--10----------10----------
    E:-----10----10----10-------
    E:--------10----------------
    E:--------------------------
    E:--------------------------
    E:--------------------------
    
                             Gm            F6           Gm      
    E:--------10------------------------------------------------
    B:-----10----10---------------------------------------------
    G:--10------------------------------------------------------
    D:------------------3--2----------3--2---------3--2---------
    A:---------------3--------5----3--------5---3--------5---3--
    E:----------------------------------------------------------
              D
    E:------------------
    E:------------------
    E:------------------
    E:--3--2------------
    E:--------5---------
    E:------------------
    
    --- 
     

Lyrics and chords are presented here by macca-central.com for archival, educational, and/or critique purposes. Lyrics and chords are the property of their respective authors, artists and/or labels and MACCAcentral in no way claims any ownership.

BASIC Guitar Chords (click)
MORE Guitar Chords (click)